SCANDAL INDONESIA


You are not connected. Please login or register

Shunkan Sentimental Cover Video

Go down  Message [Page 1 of 1]

1 Shunkan Sentimental Cover Video on 5th October 2012, 22:39

Difzz

avatar
Newbie


Code:
Intro:
D E F#m C#m
D E D

Verse:
F#m C#m D A (x2)
F#m C#m D A E/G#
F#m C#m D E A
E E F/-5(no3) F/-5(no3) F#m A
D B/Eb E C#

Chorus:
D E F#m A/C# D E A C#
D E F#m A/C# D E F/-5(no3)

Instrumental:
D E D

repeat Verse

repeat Chorus

Solo:
D A E F#m F#

Bridge:
A/D Amaj7 Bm/G F# F# E
A/D Amaj7 E F#m C#/F E B/Eb C#

Chorus 2:
D E F#m A/C# D E A C#
D E F#m A/C# D E F#m G
D E F#m A/C# D E F/-5(no3)

Outro:
D E F#m C#m
D E F#m
F#m


Intro/Outro Solo:
----------------------------
-7-----6-----5----4---------
-9b11--8b10--7b9--6b8-------
----------------------------
----------------------------
----------------------------

---------------------------------------------------------------
----10-12-12-12b14b12-10-----12-12b14b12-10-----12-12b14b12-10-
-11----------------------11-----------------11-----------------
---------------------------------------------------------------
---------------------------------------------------------------
---------------------------------------------------------------

-------------------12--10-9------------------------------------
----------------10----------12-10-9-10-12-12-12b14b12-10-------
-11-11-9-11--11------------------------------------------11----
---------------------------------------------------------------
---------------------------------------------------------------
---------------------------------------------------------------

-------------------------------------
-12-12b14b12-10-------------10-------
----------------11--9-10-11----11----
-------------------------------------
-------------------------------------
-------------------------------------

Solo:
----------------------------------------------------------------
-14--14-14-14-14\9--9--10-10-10-10-10-10/12-12-12-12-12-12\9\5--
----------------------------------------------------------------
-11--11-11-11-11\6--6--7--7--7--7--7--7/-9--9--9--9--9--9\-6\2--
----------------------------------------------------------------
----------------------------------------------------------------

-------------12--------------------------12b14--
-10----12---------12----10---12b14b12-11--------
-----9-----9----------9-------------------------
------------------------------------------------
------------------------------------------------
------------------------------------------------

Instrumental Solo:
-----------------------------------------------------------
----10-12-12b14b12-10-----12-12b14b12-10-------------10----
-11-------------------11-----------------11--9-10-11----11-
-----------------------------------------------------------
-----------------------------------------------------------
-----------------------------------------------------------
*untuk Tab nya mending Copy dulu ke notepad  :goodjob:

Source : tsunvun86 @ SCANDAL HEAVEN



Last edited by Difzz on 6th October 2012, 07:44; edited 1 time in total


____________________________________


hurray SCANDAL !! - Shunkan sentimental - Haruka - Harukaze - Welcome home - Taiyou Scandalous - RINA!! hurray
View user profile

2 Re: Shunkan Sentimental Cover Video on 5th October 2012, 23:19

pake bbcode code om, ntar jadi rapi kayak gini:
Code:
Intro:
D E F#m C#m
D E D

Verse:
F#m C#m D A (x2)
F#m C#m D A E/G#
F#m C#m D E A
E E F/-5(no3) F/-5(no3) F#m A
D B/Eb E C#

Chorus:
D E F#m A/C# D E A C#
D E F#m A/C# D E F/-5(no3)

Instrumental:
D E D

repeat Verse

repeat Chorus

Solo:
D A E F#m F#

Bridge:
A/D Amaj7 Bm/G F# F# E
A/D Amaj7 E F#m C#/F E B/Eb C#

Chorus 2:
D E F#m A/C# D E A C#
D E F#m A/C# D E F#m G
D E F#m A/C# D E F/-5(no3)

Outro:
D E F#m C#m
D E F#m
F#m


Intro/Outro Solo:
----------------------------
-7-----6-----5----4---------
-9b11--8b10--7b9--6b8-------
----------------------------
----------------------------
----------------------------

---------------------------------------------------------------
----10-12-12-12b14b12-10-----12-12b14b12-10-----12-12b14b12-10-
-11----------------------11-----------------11-----------------
---------------------------------------------------------------
---------------------------------------------------------------
---------------------------------------------------------------

-------------------12--10-9------------------------------------
----------------10----------12-10-9-10-12-12-12b14b12-10-------
-11-11-9-11--11------------------------------------------11----
---------------------------------------------------------------
---------------------------------------------------------------
---------------------------------------------------------------

-------------------------------------
-12-12b14b12-10-------------10-------
----------------11--9-10-11----11----
-------------------------------------
-------------------------------------
-------------------------------------

Solo:
----------------------------------------------------------------
-14--14-14-14-14\9--9--10-10-10-10-10-10/12-12-12-12-12-12\9\5--
----------------------------------------------------------------
-11--11-11-11-11\6--6--7--7--7--7--7--7/-9--9--9--9--9--9\-6\2--
----------------------------------------------------------------
----------------------------------------------------------------

-------------12--------------------------12b14--
-10----12---------12----10---12b14b12-11--------
-----9-----9----------9-------------------------
------------------------------------------------
------------------------------------------------
------------------------------------------------

Instrumental Solo:
-----------------------------------------------------------
----10-12-12b14b12-10-----12-12b14b12-10-------------10----
-11-------------------11-----------------11--9-10-11----11-
-----------------------------------------------------------
-----------------------------------------------------------
-----------------------------------------------------------

nice goodjob
mungkin lebih ke kualitas videonya yang ditingkatin.


____________________________________

warn Peraturan Forum warn
View user profile http://forum.scandal-indonesia.com

3 Re: Shunkan Sentimental Cover Video on 5th October 2012, 23:24

andndi

avatar
Newbie
blink kereeennn... blink

gelapnya yg gak asik heheheh... smoke


____________________________________



View user profile

4 Re: Shunkan Sentimental Cover Video on 6th October 2012, 07:31

Difzz

avatar
Newbie
kurojackal wrote:
nice goodjob
mungkin lebih ke kualitas videonya yang ditingkatin.

Okedeh iya emang ane taking videomnya pake kamera BB =D gomennasai xiexie

andndi wrote: blink kereeennn... blink

gelapnya yg gak asik heheheh... smoke

Okedeh di video selanjutnya diusahain jadi terang bingo


____________________________________


hurray SCANDAL !! - Shunkan sentimental - Haruka - Harukaze - Welcome home - Taiyou Scandalous - RINA!! hurray
View user profile

Sponsored content


Back to top  Message [Page 1 of 1]

Permissions in this forum:
You cannot reply to topics in this forum